  0
SECTION
  2
HEADER
  9
$ACADVER
  1
AC1015
  9
$ACADMAINTVER
 70
     6
  9
$DWGCODEPAGE
  3
ANSI_1254
  9
$INSBASE
 10
0.0
 20
0.0
 30
0.0
  9
$EXTMIN
 10
0.0
 20
0.0
 30
0.0
  9
$EXTMAX
 10
279.4
 20
215.9
 30
0.0
  9
$LIMMIN
 10
0.0
 20
0.0
  9
$LIMMAX
 10
279.4
 20
215.9
  9
$ORTHOMODE
 70
     0
  9
$REGENMODE
 70
     1
  9
$FILLMODE
 70
     1
  9
$QTEXTMODE
 70
     0
  9
$MIRRTEXT
 70
     1
  9
$LTSCALE
 40
1.0
  9
$ATTMODE
 70
     1
  9
$TEXTSIZE
 40
3.5
  9
$TRACEWID
 40
1.0
  9
$TEXTSTYLE
  7
Standard
  9
$CLAYER
  8
0
  9
$CELTYPE
  6
ByLayer
  9
$CECOLOR
 62
   256
  9
$CELTSCALE
 40
1.0
  9
$DISPSILH
 70
     0
  9
$DIMSCALE
 40
1.0
  9
$DIMASZ
 40
3.5
  9
$DIMEXO
 40
1.0
  9
$DIMDLI
 40
3.75
  9
$DIMRND
 40
0.0
  9
$DIMDLE
 40
0.0
  9
$DIMEXE
 40
1.0
  9
$DIMTP
 40
0.0
  9
$DIMTM
 40
0.0
  9
$DIMTXT
 40
3.5
  9
$DIMCEN
 40
2.5
  9
$DIMTSZ
 40
0.0
  9
$DIMTOL
 70
     0
  9
$DIMLIM
 70
     0
  9
$DIMTIH
 70
     1
  9
$DIMTOH
 70
     1
  9
$DIMSE1
 70
     0
  9
$DIMSE2
 70
     0
  9
$DIMTAD
 70
     1
  9
$DIMZIN
 70
     0
  9
$DIMBLK
  1

  9
$DIMASO
 70
     1
  9
$DIMSHO
 70
     1
  9
$DIMPOST
  1

  9
$DIMAPOST
  1

  9
$DIMALT
 70
     0
  9
$DIMALTD
 70
     3
  9
$DIMALTF
 40
0.0393700787
  9
$DIMLFAC
 40
1.0
  9
$DIMTOFL
 70
     1
  9
$DIMTVP
 40
0.0
  9
$DIMTIX
 70
     0
  9
$DIMSOXD
 70
     0
  9
$DIMSAH
 70
     0
  9
$DIMBLK1
  1

  9
$DIMBLK2
  1

  9
$DIMSTYLE
  2
ISO-25
  9
$DIMCLRD
 70
     0
  9
$DIMCLRE
 70
     0
  9
$DIMCLRT
 70
     0
  9
$DIMTFAC
 40
1.0
  9
$DIMGAP
 40
1.524
  9
$DIMJUST
 70
     0
  9
$DIMSD1
 70
     0
  9
$DIMSD2
 70
     0
  9
$DIMTOLJ
 70
     0
  9
$DIMTZIN
 70
     0
  9
$DIMALTZ
 70
     0
  9
$DIMALTTZ
 70
     0
  9
$DIMUPT
 70
     0
  9
$DIMDEC
 70
     2
  9
$DIMTDEC
 70
     2
  9
$DIMALTU
 70
     2
  9
$DIMALTTD
 70
     3
  9
$DIMTXSTY
  7
Standard
  9
$DIMAUNIT
 70
     0
  9
$DIMADEC
 70
     2
  9
$DIMALTRND
 40
0.0
  9
$DIMAZIN
 70
     0
  9
$DIMDSEP
 70
    44
  9
$DIMATFIT
 70
     3
  9
$DIMFRAC
 70
     0
  9
$DIMLDRBLK
  1

  9
$DIMLUNIT
 70
     2
  9
$DIMLWD
 70
    -2
  9
$DIMLWE
 70
    -2
  9
$DIMTMOVE
 70
     0
  9
$LUNITS
 70
     2
  9
$LUPREC
 70
     2
  9
$SKETCHINC
 40
1.0
  9
$FILLETRAD
 40
10.0
  9
$AUNITS
 70
     0
  9
$AUPREC
 70
     2
  9
$MENU
  1
.
  9
$ELEVATION
 40
0.0
  9
$PELEVATION
 40
0.0
  9
$THICKNESS
 40
0.0
  9
$LIMCHECK
 70
     0
  9
$CHAMFERA
 40
0.0
  9
$CHAMFERB
 40
0.0
  9
$CHAMFERC
 40
0.0
  9
$CHAMFERD
 40
0.0
  9
$SKPOLY
 70
     0
  9
$TDCREATE
 40
2458985.705786285
  9
$TDUCREATE
 40
2458985.580786285
  9
$TDUPDATE
 40
2458985.705786563
  9
$TDUUPDATE
 40
2458985.580786563
  9
$TDINDWG
 40
0.0000000116
  9
$TDUSRTIMER
 40
0.0000000116
  9
$USRTIMER
 70
     1
  9
$ANGBASE
 50
0.0
  9
$ANGDIR
 70
     0
  9
$PDMODE
 70
     0
  9
$PDSIZE
 40
-1.0
  9
$PLINEWID
 40
0.0
  9
$SPLFRAME
 70
     0
  9
$SPLINETYPE
 70
     6
  9
$SPLINESEGS
 70
     8
  9
$HANDSEED
  5
F1
  9
$SURFTAB1
 70
     6
  9
$SURFTAB2
 70
     6
  9
$SURFTYPE
 70
     6
  9
$SURFU
 70
     6
  9
$SURFV
 70
     6
  9
$UCSBASE
  2

  9
$UCSNAME
  2

  9
$UCSORG
 10
0.0
 20
0.0
 30
0.0
  9
$UCSXDIR
 10
1.0
 20
0.0
 30
0.0
  9
$UCSYDIR
 10
0.0
 20
1.0
 30
0.0
  9
$UCSORTHOREF
  2

  9
$UCSORTHOVIEW
 70
     0
  9
$UCSORGTOP
 10
0.0
 20
0.0
 30
0.0
  9
$UCSORGBOTTOM
 10
0.0
 20
0.0
 30
0.0
  9
$UCSORGLEFT
 10
0.0
 20
0.0
 30
0.0
  9
$UCSORGRIGHT
 10
0.0
 20
0.0
 30
0.0
  9
$UCSORGFRONT
 10
0.0
 20
0.0
 30
0.0
  9
$UCSORGBACK
 10
0.0
 20
0.0
 30
0.0
  9
$PUCSBASE
  2

  9
$PUCSNAME
  2

  9
$PUCSORG
 10
0.0
 20
0.0
 30
0.0
  9
$PUCSXDIR
 10
1.0
 20
0.0
 30
0.0
  9
$PUCSYDIR
 10
0.0
 20
1.0
 30
0.0
  9
$PUCSORTHOREF
  2

  9
$PUCSORTHOVIEW
 70
     0
  9
$PUCSORGTOP
 10
0.0
 20
0.0
 30
0.0
  9
$PUCSORGBOTTOM
 10
0.0
 20
0.0
 30
0.0
  9
$PUCSORGLEFT
 10
0.0
 20
0.0
 30
0.0
  9
$PUCSORGRIGHT
 10
0.0
 20
0.0
 30
0.0
  9
$PUCSORGFRONT
 10
0.0
 20
0.0
 30
0.0
  9
$PUCSORGBACK
 10
0.0
 20
0.0
 30
0.0
  9
$USERI1
 70
     0
  9
$USERI2
 70
     0
  9
$USERI3
 70
     0
  9
$USERI4
 70
     0
  9
$USERI5
 70
     0
  9
$USERR1
 40
0.0
  9
$USERR2
 40
0.0
  9
$USERR3
 40
0.0
  9
$USERR4
 40
0.0
  9
$USERR5
 40
0.0
  9
$WORLDVIEW
 70
     1
  9
$SHADEDGE
 70
     3
  9
$SHADEDIF
 70
    70
  9
$TILEMODE
 70
     1
  9
$MAXACTVP
 70
    64
  9
$PINSBASE
 10
0.0
 20
0.0
 30
0.0
  9
$PLIMCHECK
 70
     0
  9
$PEXTMIN
 10
1.0000000000E+20
 20
1.0000000000E+20
 30
1.0000000000E+20
  9
$PEXTMAX
 10
-1.0000000000E+20
 20
-1.0000000000E+20
 30
-1.0000000000E+20
  9
$PLIMMIN
 10
0.0
 20
0.0
  9
$PLIMMAX
 10
420.0
 20
297.0
  9
$UNITMODE
 70
     0
  9
$VISRETAIN
 70
     1
  9
$PLINEGEN
 70
     0
  9
$PSLTSCALE
 70
     1
  9
$TREEDEPTH
 70
  3020
  9
$CMLSTYLE
  2
Standard
  9
$CMLJUST
 70
     0
  9
$CMLSCALE
 40
20.0
  9
$PROXYGRAPHICS
 70
     1
  9
$MEASUREMENT
 70
     1
  9
$CELWEIGHT
370
    -1
  9
$ENDCAPS
280
     0
  9
$JOINSTYLE
280
     0
  9
$LWDISPLAY
290
     1
  9
$INSUNITS
 70
     4
  9
$HYPERLINKBASE
  1

  9
$STYLESHEET
  1

  9
$XEDIT
290
     1
  9
$CEPSNTYPE
380
     0
  9
$PSTYLEMODE
290
     1
  9
$FINGERPRINTGUID
  2
{16b92b37-2b0f-4225-9808-0c6c7e180346}
  9
$VERSIONGUID
  2
{FAEB1C32-E019-11D5-929B-00C0DF256EC4}
  9
$EXTNAMES
290
     1
  9
$PSVPSCALE
 40
0.0
  9
$OLESTARTUP
290
     0
  0
ENDSEC
  0
SECTION
  2
CLASSES
  0
CLASS
  1
ACDBDICTIONARYWDFLT
  2
AcDbDictionaryWithDefault
  3
ObjectDBX Classes
 90
        0
280
     0
281
     0
  0
CLASS
  1
VISUALSTYLE
  2
AcDbVisualStyle
  3
ObjectDBX Classes
 90
     4095
280
     0
281
     0
  0
CLASS
  1
MATERIAL
  2
AcDbMaterial
  3
ObjectDBX Classes
 90
     1153
280
     0
281
     0
  0
CLASS
  1
SCALE
  2
AcDbScale
  3
ObjectDBX Classes
 90
     1153
280
     0
281
     0
  0
CLASS
  1
TABLESTYLE
  2
AcDbTableStyle
  3
ObjectDBX Classes
 90
     4095
280
     0
281
     0
  0
CLASS
  1
MLEADERSTYLE
  2
AcDbMLeaderStyle
  3
ACDB_MLEADERSTYLE_CLASS
 90
     4095
280
     0
281
     0
  0
CLASS
  1
SUN
  2
AcDbSun
  3
SCENEOE
 90
     1153
280
     0
281
     0
  0
CLASS
  1
ACDBPLACEHOLDER
  2
AcDbPlaceHolder
  3
ObjectDBX Classes
 90
        0
280
     0
281
     0
  0
CLASS
  1
LAYOUT
  2
AcDbLayout
  3
ObjectDBX Classes
 90
        0
280
     0
281
     0
  0
ENDSEC
  0
SECTION
  2
TABLES
  0
TABLE
  2
VPORT
  5
8
330
0
100
AcDbSymbolTable
 70
     1
  0
VPORT
  5
29
330
8
100
AcDbSymbolTableRecord
100
AcDbViewportTableRecord
  2
*Active
 70
     0
 10
0.0
 20
0.0
 11
1.0
 21
1.0
 12
139.7
 22
107.95
 13
0.0
 23
0.0
 14
10.0
 24
10.0
 15
10.0
 25
10.0
 16
0.0
 26
0.0
 36
1.0
 17
0.0
 27
0.0
 37
0.0
 40
215.9
 41
1.2941176471
 42
50.0
 43
0.0
 44
0.0
 50
0.0
 51
0.0
 71
     0
 72
  2000
 73
     1
 74
     3
 75
     0
 76
     0
 77
     0
 78
     0
281
     0
 65
     1
110
0.0
120
0.0
130
0.0
111
1.0
121
0.0
131
0.0
112
0.0
122
1.0
132
0.0
 79
     0
146
0.0
  0
ENDTAB
  0
TABLE
  2
LTYPE
  5
5
330
0
100
AcDbSymbolTable
 70
     6
  0
LTYPE
  5
14
330
5
100
AcDbSymbolTableRecord
100
AcDbLinetypeTableRecord
  2
ByBlock
 70
     0
  3

 72
    65
 73
     0
 40
0.0
  0
LTYPE
  5
15
330
5
100
AcDbSymbolTableRecord
100
AcDbLinetypeTableRecord
  2
ByLayer
 70
     0
  3

 72
    65
 73
     0
 40
0.0
  0
LTYPE
  5
16
330
5
100
AcDbSymbolTableRecord
100
AcDbLinetypeTableRecord
  2
Continuous
 70
     0
  3
Solid line
 72
    65
 73
     0
 40
0.0
  0
LTYPE
  5
6E
330
5
100
AcDbSymbolTableRecord
100
AcDbLinetypeTableRecord
  2
HIDDEN
 70
     0
  3
Hidden __ __ __ __ __ __ __ __ __ __ __ __ __ __
 72
    65
 73
     2
 40
1.905
 49
1.27
 74
     0
 49
-0.635
 74
     0
  0
LTYPE
  5
6F
330
5
100
AcDbSymbolTableRecord
100
AcDbLinetypeTableRecord
  2
PHANTOM
 70
     0
  3
Phantom ______  __  __  ______  __  __  ______
 72
    65
 73
     6
 40
12.7
 49
6.35
 74
     0
 49
-1.27
 74
     0
 49
1.27
 74
     0
 49
-1.27
 74
     0
 49
1.27
 74
     0
 49
-1.27
 74
     0
  0
LTYPE
  5
70
330
5
100
AcDbSymbolTableRecord
100
AcDbLinetypeTableRecord
  2
CENTER
 70
     0
  3
Center ____ _ ____ _ ____ _ ____ _ ____ _ ____
 72
    65
 73
     4
 40
10.16
 49
6.35
 74
     0
 49
-1.27
 74
     0
 49
1.27
 74
     0
 49
-1.27
 74
     0
  0
LTYPE
  5
71
330
5
100
AcDbSymbolTableRecord
100
AcDbLinetypeTableRecord
  2
CENTERX2
 70
     0
  3
Center (2x) ________  __  ________  __  _____
 72
    65
 73
     4
 40
20.32
 49
12.7
 74
     0
 49
-2.54
 74
     0
 49
2.54
 74
     0
 49
-2.54
 74
     0
  0
LTYPE
  5
72
330
5
100
AcDbSymbolTableRecord
100
AcDbLinetypeTableRecord
  2
DOT2
 70
     0
  3
Dot (.5x) ........................................
 72
    65
 73
     2
 40
0.635
 49
0.0
 74
     0
 49
-0.635
 74
     0
  0
ENDTAB
  0
TABLE
  2
LAYER
  5
2
330
0
100
AcDbSymbolTable
 70
    17
  0
LAYER
  5
10
330
2
100
AcDbSymbolTableRecord
100
AcDbLayerTableRecord
  2
0
 70
     0
 62
     7
  6
Continuous
370
    -3
390
F
  0
LAYER
  5
73
330
2
100
AcDbSymbolTableRecord
100
AcDbLayerTableRecord
  2
FORMAT
 70
     0
 62
     7
  6
Continuous
370
    -3
390
F
  0
LAYER
  5
74
330
2
100
AcDbSymbolTableRecord
100
AcDbLayerTableRecord
  2
YARDIMCI_GEOMETRI
 70
     0
 62
    -6
  6
Continuous
290
     0
370
    -3
390
F
  0
LAYER
  5
75
330
2
100
AcDbSymbolTableRecord
100
AcDbLayerTableRecord
  2
SAYFA_CERCEVESI
 70
     0
 62
     7
  6
Continuous
370
    25
390
F
  0
LAYER
  5
76
330
2
100
AcDbSymbolTableRecord
100
AcDbLayerTableRecord
  2
ANTET
 70
     0
 62
     7
  6
Continuous
370
    -3
390
F
  0
LAYER
  5
77
330
2
100
AcDbSymbolTableRecord
100
AcDbLayerTableRecord
  2
OLCU
 70
     0
 62
   150
  6
Continuous
370
    -3
390
F
  0
LAYER
  5
78
330
2
100
AcDbSymbolTableRecord
100
AcDbLayerTableRecord
  2
METIN
 70
     0
 62
    96
  6
Continuous
370
    -3
390
F
  0
LAYER
  5
79
330
2
100
AcDbSymbolTableRecord
100
AcDbLayerTableRecord
  2
BALON
 70
     0
 62
     5
  6
Continuous
370
    -3
390
F
  0
LAYER
  5
7A
330
2
100
AcDbSymbolTableRecord
100
AcDbLayerTableRecord
  2
VURGU
 70
     0
 62
     7
  6
Continuous
370
    -3
390
F
  0
LAYER
  5
7B
330
2
100
AcDbSymbolTableRecord
100
AcDbLayerTableRecord
  2
SILIK
 70
     0
 62
     7
  6
Continuous
370
    -3
390
F
  0
LAYER
  5
7C
330
2
100
AcDbSymbolTableRecord
100
AcDbLayerTableRecord
  2
MODEL
 70
     0
 62
     7
  6
Continuous
370
    -3
390
F
  0
LAYER
  5
7D
330
2
100
AcDbSymbolTableRecord
100
AcDbLayerTableRecord
  2
DETAYLANDıRMA
 70
     0
 62
   190
  6
Continuous
370
    -3
390
F
  0
LAYER
  5
7E
330
2
100
AcDbSymbolTableRecord
100
AcDbLayerTableRecord
  2
TOLERANS
 70
     0
 62
   230
  6
Continuous
370
    -3
390
F
  0
LAYER
  5
7F
330
2
100
AcDbSymbolTableRecord
100
AcDbLayerTableRecord
  2
MERKEZ_CIZGILERI
 70
     0
 62
    30
  6
Continuous
370
    -3
390
F
  0
LAYER
  5
80
330
2
100
AcDbSymbolTableRecord
100
AcDbLayerTableRecord
  2
KESIT-DETAY_CIZGILERI
 70
     0
 62
     7
  6
Continuous
370
    -3
390
F
  0
LAYER
  5
81
330
2
100
AcDbSymbolTableRecord
100
AcDbLayerTableRecord
  2
\U+041E\U+0421\U+0415\U+0412\U+042B\U+0415
 70
     0
 62
     7
  6
Continuous
370
    -3
390
F
  0
LAYER
  5
82
330
2
100
AcDbSymbolTableRecord
100
AcDbLayerTableRecord
  2
\U+0412\U+041E\U+0414\U+042F\U+041D\U+042B\U+0415_\U+0417\U+041D\U+0410\U+041A\U+0418
 70
     0
 62
    11
  6
Continuous
370
    -3
390
F
  0
ENDTAB
  0
TABLE
  2
STYLE
  5
3
330
0
100
AcDbSymbolTable
 70
     1
  0
STYLE
  5
11
330
3
100
AcDbSymbolTableRecord
100
AcDbTextStyleTableRecord
  2
Standard
 70
     0
 40
0.0
 41
1.0
 50
0.0
 71
     0
 42
3.5
  3
txt
  4

  0
ENDTAB
  0
TABLE
  2
VIEW
  5
6
330
0
100
AcDbSymbolTable
 70
     0
  0
ENDTAB
  0
TABLE
  2
UCS
  5
7
330
0
100
AcDbSymbolTable
 70
     0
  0
ENDTAB
  0
TABLE
  2
APPID
  5
9
330
0
100
AcDbSymbolTable
 70
     1
  0
APPID
  5
12
330
9
100
AcDbSymbolTableRecord
100
AcDbRegAppTableRecord
  2
ACAD
 70
     0
  0
ENDTAB
  0
TABLE
  2
DIMSTYLE
  5
A
330
0
100
AcDbSymbolTable
 70
     1
100
AcDbDimStyleTable
  0
DIMSTYLE
105
27
330
A
100
AcDbSymbolTableRecord
100
AcDbDimStyleTableRecord
  2
ISO-25
 70
     0
 41
2.5
 42
0.625
 43
3.75
 44
1.25
 73
     0
 74
     0
 77
     1
 78
     8
140
2.5
141
2.5
143
0.0393700787
147
0.625
171
     3
172
     1
178
     0
271
     2
272
     2
274
     3
278
    44
283
     0
284
     8
340
11
  0
ENDTAB
  0
TABLE
  2
BLOCK_RECORD
  5
1
330
0
100
AcDbSymbolTable
 70
     2
  0
BLOCK_RECORD
  5
1F
330
1
100
AcDbSymbolTableRecord
100
AcDbBlockTableRecord
  2
*Model_Space
340
22
  0
BLOCK_RECORD
  5
1B
330
1
100
AcDbSymbolTableRecord
100
AcDbBlockTableRecord
  2
*Paper_Space
340
1E
  0
BLOCK_RECORD
  5
23
330
1
100
AcDbSymbolTableRecord
100
AcDbBlockTableRecord
  2
*Paper_Space0
340
26
  0
BLOCK_RECORD
  5
88
330
1
100
AcDbSymbolTableRecord
100
AcDbBlockTableRecord
  2
SW_CENTERMARKSYMBOL_0
340
0
102
{BLKREFS
331
93
102
}
  0
ENDTAB
  0
ENDSEC
  0
SECTION
  2
BLOCKS
  0
BLOCK
  5
20
330
1F
100
AcDbEntity
  8
0
100
AcDbBlockBegin
  2
*Model_Space
 70
     0
 10
0.0
 20
0.0
 30
0.0
  3
*Model_Space
  1

  0
ENDBLK
  5
21
330
1F
100
AcDbEntity
  8
0
100
AcDbBlockEnd
  0
BLOCK
  5
1C
330
1B
100
AcDbEntity
 67
     1
  8
0
100
AcDbBlockBegin
  2
*Paper_Space
 70
     0
 10
0.0
 20
0.0
 30
0.0
  3
*Paper_Space
  1

  0
ENDBLK
  5
1D
330
1B
100
AcDbEntity
 67
     1
  8
0
100
AcDbBlockEnd
  0
BLOCK
  5
24
330
23
100
AcDbEntity
  8
0
100
AcDbBlockBegin
  2
*Paper_Space0
 70
     0
 10
0.0
 20
0.0
 30
0.0
  3
*Paper_Space0
  1

  0
ENDBLK
  5
25
330
23
100
AcDbEntity
  8
0
100
AcDbBlockEnd
  0
BLOCK
  5
89
330
88
100
AcDbEntity
  8
0
100
AcDbBlockBegin
  2
SW_CENTERMARKSYMBOL_0
 70
     0
 10
0.0
 20
0.0
 30
0.0
  3
SW_CENTERMARKSYMBOL_0
  1

  0
LINE
  5
8B
330
88
100
AcDbEntity
  8
FORMAT
 62
     0
100
AcDbLine
 10
0.0
 20
0.0
 30
0.0
 11
0.0
 21
2.5
 31
0.0
  0
LINE
  5
8C
330
88
100
AcDbEntity
  8
FORMAT
 62
     0
100
AcDbLine
 10
0.0
 20
0.0
 30
0.0
 11
-2.5
 21
0.0
 31
0.0
  0
LINE
  5
8D
330
88
100
AcDbEntity
  8
FORMAT
 62
     0
100
AcDbLine
 10
0.0
 20
0.0
 30
0.0
 11
0.0
 21
-2.5
 31
0.0
  0
LINE
  5
8E
330
88
100
AcDbEntity
  8
FORMAT
 62
     0
100
AcDbLine
 10
0.0
 20
0.0
 30
0.0
 11
2.5
 21
0.0
 31
0.0
  0
LINE
  5
8F
330
88
100
AcDbEntity
  8
FORMAT
 62
     0
100
AcDbLine
 10
0.0
 20
5.0
 30
0.0
 11
0.0
 21
92.5
 31
0.0
  0
LINE
  5
90
330
88
100
AcDbEntity
  8
FORMAT
 62
     0
100
AcDbLine
 10
-5.0
 20
0.0
 30
0.0
 11
-92.5
 21
0.0
 31
0.0
  0
LINE
  5
91
330
88
100
AcDbEntity
  8
FORMAT
 62
     0
100
AcDbLine
 10
0.0
 20
-5.0
 30
0.0
 11
0.0
 21
-92.5
 31
0.0
  0
LINE
  5
92
330
88
100
AcDbEntity
  8
FORMAT
 62
     0
100
AcDbLine
 10
5.0
 20
0.0
 30
0.0
 11
92.5
 21
0.0
 31
0.0
  0
ENDBLK
  5
8A
330
88
100
AcDbEntity
  8
0
100
AcDbBlockEnd
  0
ENDSEC
  0
SECTION
  2
ENTITIES
  0
CIRCLE
  5
83
330
1F
100
AcDbEntity
  8
0
  6
Continuous
 62
     7
370
    25
100
AcDbCircle
 10
135.7204942573
 20
109.882282191
 30
0.0
 40
89.99999999999999
  0
CIRCLE
  5
84
330
1F
100
AcDbEntity
  8
0
  6
Continuous
 62
     7
370
    25
100
AcDbCircle
 10
135.7204942573
 20
109.882282191
 30
0.0
 40
79.29999999999998
  0
CIRCLE
  5
85
330
1F
100
AcDbEntity
  8
0
  6
Continuous
 62
     7
370
    25
100
AcDbCircle
 10
135.7204942573
 20
109.882282191
 30
0.0
 40
78.88245446760519
  0
CIRCLE
  5
86
330
1F
100
AcDbEntity
  8
0
  6
Continuous
 62
     7
370
    25
100
AcDbCircle
 10
135.7204942573
 20
109.882282191
 30
0.0
 40
55.51754553239483
  0
CIRCLE
  5
87
330
1F
100
AcDbEntity
  8
0
  6
Continuous
 62
     7
370
    25
100
AcDbCircle
 10
135.7204942573
 20
109.882282191
 30
0.0
 40
55.10000000000001
  0
INSERT
  5
93
330
1F
100
AcDbEntity
  8
FORMAT
 62
     7
100
AcDbBlockReference
  2
SW_CENTERMARKSYMBOL_0
 10
135.7204942573
 20
109.882282191
 30
0.0
  0
LINE
  5
94
330
1F
100
AcDbEntity
  8
0
  6
Continuous
 62
     7
370
    25
100
AcDbLine
 10
-213.7419867757
 20
199.8822857673
 30
0.0
 11
-318.3244920763
 21
199.8822857673
 31
0.0
  0
LINE
  5
95
330
1F
100
AcDbEntity
  8
0
  6
Continuous
 62
     7
370
    25
100
AcDbLine
 10
-318.3244920763
 20
19.8822786147
 30
0.0
 11
-213.7419867757
 21
19.8822786147
 31
0.0
  0
ARC
  5
96
330
1F
100
AcDbEntity
  8
0
  6
Continuous
 62
     7
370
    25
100
AcDbCircle
 10
-213.7419860401
 20
197.882282191
 30
0.0
 40
1.999999999999972
100
AcDbArc
 50
66.4183488552
 51
90.0
  0
ARC
  5
97
330
1F
100
AcDbEntity
  8
0
  6
Continuous
 62
     7
370
    25
100
AcDbCircle
 10
-213.7419860401
 20
21.882282191
 30
0.0
 40
1.999999999999989
100
AcDbArc
 50
270.0
 51
293.5816511449
  0
LINE
  5
98
330
1F
100
AcDbEntity
  8
0
  6
Continuous
 62
     7
370
    25
100
AcDbLine
 10
-212.9418745133
 20
20.04929828
 30
0.0
 11
-150.7071226331
 21
47.2152625258
 31
0.0
  0
LINE
  5
99
330
1F
100
AcDbEntity
  8
0
  6
Continuous
 62
     7
370
    25
100
AcDbLine
 10
-150.7071226331
 20
172.5493018563
 30
0.0
 11
-212.9418745133
 21
199.715266102
 31
0.0
  0
ARC
  5
9A
330
1F
100
AcDbEntity
  8
0
  6
Continuous
 62
     7
370
    25
100
AcDbCircle
 10
-149.9070109299
 20
174.382282191
 30
0.0
 40
2.0
100
AcDbArc
 50
246.4183488551
 51
270.0
  0
ARC
  5
9B
330
1F
100
AcDbEntity
  8
0
  6
Continuous
 62
     7
370
    25
100
AcDbCircle
 10
-149.9070109299
 20
45.382282191
 30
0.0
 40
2.000000000000004
100
AcDbArc
 50
90.0
 51
113.5816511449
  0
LINE
  5
9C
330
1F
100
AcDbEntity
  8
0
  6
Continuous
 62
     7
370
    25
100
AcDbLine
 10
-63.3244968447
 20
172.382282191
 30
0.0
 11
-149.9070122334
 21
172.382282191
 31
0.0
  0
LINE
  5
9D
330
1F
100
AcDbEntity
  8
0
  6
Continuous
 62
     7
370
    25
100
AcDbLine
 10
-149.9070122334
 20
47.382282191
 30
0.0
 11
-63.3244968447
 21
47.382282191
 31
0.0
  0
LINE
  5
9E
330
1F
100
AcDbEntity
  8
0
  6
Continuous
 62
     7
370
    25
100
AcDbLine
 10
-318.3244920763
 20
199.8822857673
 30
0.0
 11
-318.3244920763
 21
19.8822786147
 31
0.0
  0
LINE
  5
9F
330
1F
100
AcDbEntity
  8
0
  6
Continuous
 62
     7
370
    25
100
AcDbLine
 10
-63.3244968447
 20
172.382282191
 30
0.0
 11
-63.3244968447
 21
47.382282191
 31
0.0
  0
LINE
  5
A0
330
1F
100
AcDbEntity
  8
0
  6
Continuous
 62
     1
370
    25
100
AcDbLine
 10
-213.7419867757
 20
199.8822857673
 30
0.0
 11
-213.7419867757
 21
19.8822786147
 31
0.0
  0
LINE
  5
A1
330
1F
100
AcDbEntity
  8
0
  6
Continuous
 62
     1
370
    25
100
AcDbLine
 10
-212.9418745133
 20
199.715266102
 30
0.0
 11
-212.9418745133
 21
20.04929828
 31
0.0
  0
LINE
  5
A2
330
1F
100
AcDbEntity
  8
0
  6
Continuous
 62
     1
370
    25
100
AcDbLine
 10
-150.7071226331
 20
172.5493018563
 30
0.0
 11
-150.7071226331
 21
47.2152625258
 31
0.0
  0
LINE
  5
A3
330
1F
100
AcDbEntity
  8
0
  6
Continuous
 62
     1
370
    25
100
AcDbLine
 10
-149.9070122334
 20
172.382282191
 30
0.0
 11
-149.9070122334
 21
47.382282191
 31
0.0
  0
LINE
  5
A4
330
1F
100
AcDbEntity
  8
0
  6
Continuous
 62
     7
370
    25
100
AcDbLine
 10
225.7204978336
 20
424.0254892066
 30
0.0
 11
225.7204978336
 21
528.6079945072
 31
0.0
  0
LINE
  5
A5
330
1F
100
AcDbEntity
  8
0
  6
Continuous
 62
     7
370
    25
100
AcDbLine
 10
45.720490681
 20
528.6079945072
 30
0.0
 11
45.720490681
 21
424.0254892066
 31
0.0
  0
ARC
  5
A6
330
1F
100
AcDbEntity
  8
0
  6
Continuous
 62
     7
370
    25
100
AcDbCircle
 10
223.7204942573
 20
424.025488471
 30
0.0
 40
1.999999999999986
100
AcDbArc
 50
336.4183488552
 51
0.0
  0
ARC
  5
A7
330
1F
100
AcDbEntity
  8
0
  6
Continuous
 62
     7
370
    25
100
AcDbCircle
 10
47.7204942573
 20
424.025488471
 30
0.0
 40
1.999999999999993
100
AcDbArc
 50
180.0
 51
203.5816511449
  0
LINE
  5
A8
330
1F
100
AcDbEntity
  8
0
  6
Continuous
 62
     7
370
    25
100
AcDbLine
 10
45.8875103463
 20
423.2253769442
 30
0.0
 11
73.0534745921
 21
360.990625064
 31
0.0
  0
LINE
  5
A9
330
1F
100
AcDbEntity
  8
0
  6
Continuous
 62
     7
370
    25
100
AcDbLine
 10
198.3875139226
 20
360.990625064
 30
0.0
 11
225.5534781684
 21
423.2253769442
 31
0.0
  0
ARC
  5
AA
330
1F
100
AcDbEntity
  8
0
  6
Continuous
 62
     7
370
    25
100
AcDbCircle
 10
200.2204942573
 20
360.1905133608
 30
0.0
 40
2.000000000000028
100
AcDbArc
 50
156.4183488551
 51
180.0
  0
ARC
  5
AB
330
1F
100
AcDbEntity
  8
0
  6
Continuous
 62
     7
370
    25
100
AcDbCircle
 10
71.2204942573
 20
360.1905133608
 30
0.0
 40
1.999999999999986
100
AcDbArc
 50
0.0
 51
23.5816511449
  0
LINE
  5
AC
330
1F
100
AcDbEntity
  8
0
  6
Continuous
 62
     7
370
    25
100
AcDbLine
 10
198.2204942573
 20
273.6079992756
 30
0.0
 11
198.2204942573
 21
360.1905146643
 31
0.0
  0
LINE
  5
AD
330
1F
100
AcDbEntity
  8
0
  6
Continuous
 62
     7
370
    25
100
AcDbLine
 10
73.2204942573
 20
360.1905146643
 30
0.0
 11
73.2204942573
 21
273.6079992756
 31
0.0
  0
LINE
  5
AE
330
1F
100
AcDbEntity
  8
0
  6
Continuous
 62
     7
370
    25
100
AcDbLine
 10
225.7204978336
 20
528.6079945072
 30
0.0
 11
45.720490681
 21
528.6079945072
 31
0.0
  0
LINE
  5
AF
330
1F
100
AcDbEntity
  8
0
  6
Continuous
 62
     7
370
    25
100
AcDbLine
 10
198.2204942573
 20
273.6079992756
 30
0.0
 11
73.2204942573
 21
273.6079992756
 31
0.0
  0
LINE
  5
B0
330
1F
100
AcDbEntity
  8
0
  6
Continuous
 62
     1
370
    25
100
AcDbLine
 10
225.7204978336
 20
424.0254892066
 30
0.0
 11
45.720490681
 21
424.0254892066
 31
0.0
  0
LINE
  5
B1
330
1F
100
AcDbEntity
  8
0
  6
Continuous
 62
     1
370
    25
100
AcDbLine
 10
225.5534781684
 20
423.2253769442
 30
0.0
 11
45.8875103463
 21
423.2253769442
 31
0.0
  0
LINE
  5
B2
330
1F
100
AcDbEntity
  8
0
  6
Continuous
 62
     1
370
    25
100
AcDbLine
 10
198.3875139226
 20
360.990625064
 30
0.0
 11
73.0534745921
 21
360.990625064
 31
0.0
  0
LINE
  5
B3
330
1F
100
AcDbEntity
  8
0
  6
Continuous
 62
     1
370
    25
100
AcDbLine
 10
198.2204942573
 20
360.1905146643
 30
0.0
 11
73.2204942573
 21
360.1905146643
 31
0.0
  0
LINE
  5
B4
330
1F
100
AcDbEntity
  8
0
  6
Continuous
 62
     7
370
    25
100
AcDbLine
 10
498.0679369329
 20
19.8822786147
 30
0.0
 11
602.6504422335
 21
19.8822786147
 31
0.0
  0
LINE
  5
B5
330
1F
100
AcDbEntity
  8
0
  6
Continuous
 62
     7
370
    25
100
AcDbLine
 10
602.6504422335
 20
199.8822857673
 30
0.0
 11
498.0679369329
 21
199.8822857673
 31
0.0
  0
ARC
  5
B6
330
1F
100
AcDbEntity
  8
0
  6
Continuous
 62
     7
370
    25
100
AcDbCircle
 10
498.0679361973
 20
21.882282191
 30
0.0
 40
1.999999999999989
100
AcDbArc
 50
246.4183488552
 51
270.0
  0
ARC
  5
B7
330
1F
100
AcDbEntity
  8
0
  6
Continuous
 62
     7
370
    25
100
AcDbCircle
 10
498.0679361973
 20
197.882282191
 30
0.0
 40
1.999999999999972
100
AcDbArc
 50
90.0
 51
113.5816511449
  0
LINE
  5
B8
330
1F
100
AcDbEntity
  8
0
  6
Continuous
 62
     7
370
    25
100
AcDbLine
 10
497.2678246705
 20
199.715266102
 30
0.0
 11
435.0330727903
 21
172.5493018563
 31
0.0
  0
LINE
  5
B9
330
1F
100
AcDbEntity
  8
0
  6
Continuous
 62
     7
370
    25
100
AcDbLine
 10
435.0330727903
 20
47.2152625258
 30
0.0
 11
497.2678246705
 21
20.04929828
 31
0.0
  0
ARC
  5
BA
330
1F
100
AcDbEntity
  8
0
  6
Continuous
 62
     7
370
    25
100
AcDbCircle
 10
434.2329610871
 20
45.382282191
 30
0.0
 40
1.999999999999993
100
AcDbArc
 50
66.4183488551
 51
90.0
  0
ARC
  5
BB
330
1F
100
AcDbEntity
  8
0
  6
Continuous
 62
     7
370
    25
100
AcDbCircle
 10
434.2329610871
 20
174.382282191
 30
0.0
 40
2.0
100
AcDbArc
 50
270.0
 51
293.5816511449
  0
LINE
  5
BC
330
1F
100
AcDbEntity
  8
0
  6
Continuous
 62
     7
370
    25
100
AcDbLine
 10
347.6504470019
 20
47.382282191
 30
0.0
 11
434.2329623906
 21
47.382282191
 31
0.0
  0
LINE
  5
BD
330
1F
100
AcDbEntity
  8
0
  6
Continuous
 62
     7
370
    25
100
AcDbLine
 10
434.2329623906
 20
172.382282191
 30
0.0
 11
347.6504470019
 21
172.382282191
 31
0.0
  0
LINE
  5
BE
330
1F
100
AcDbEntity
  8
0
  6
Continuous
 62
     7
370
    25
100
AcDbLine
 10
602.6504422335
 20
109.882282191
 30
0.0
 11
602.6504422335
 21
199.8822857673
 31
0.0
  0
LINE
  5
BF
330
1F
100
AcDbEntity
  8
0
  6
Continuous
 62
     7
370
    25
100
AcDbLine
 10
602.6504422335
 20
19.8822786147
 30
0.0
 11
602.6504422335
 21
109.882282191
 31
0.0
  0
LINE
  5
C0
330
1F
100
AcDbEntity
  8
0
  6
Continuous
 62
     7
370
    25
100
AcDbLine
 10
347.6504470019
 20
109.882282191
 30
0.0
 11
347.6504470019
 21
172.382282191
 31
0.0
  0
LINE
  5
C1
330
1F
100
AcDbEntity
  8
0
  6
Continuous
 62
     7
370
    25
100
AcDbLine
 10
347.6504470019
 20
47.382282191
 30
0.0
 11
347.6504470019
 21
109.882282191
 31
0.0
  0
LINE
  5
C2
330
1F
100
AcDbEntity
  8
0
  6
Continuous
 62
     1
370
    25
100
AcDbLine
 10
498.0679369329
 20
109.882282191
 30
0.0
 11
498.0679369329
 21
199.8822857673
 31
0.0
  0
LINE
  5
C3
330
1F
100
AcDbEntity
  8
0
  6
Continuous
 62
     1
370
    25
100
AcDbLine
 10
498.0679369329
 20
19.8822786147
 30
0.0
 11
498.0679369329
 21
109.882282191
 31
0.0
  0
LINE
  5
C4
330
1F
100
AcDbEntity
  8
0
  6
Continuous
 62
     1
370
    25
100
AcDbLine
 10
497.2678246705
 20
109.882282191
 30
0.0
 11
497.2678246705
 21
199.715266102
 31
0.0
  0
LINE
  5
C5
330
1F
100
AcDbEntity
  8
0
  6
Continuous
 62
     1
370
    25
100
AcDbLine
 10
497.2678246705
 20
20.04929828
 30
0.0
 11
497.2678246705
 21
109.882282191
 31
0.0
  0
LINE
  5
C6
330
1F
100
AcDbEntity
  8
0
  6
Continuous
 62
     1
370
    25
100
AcDbLine
 10
435.0330727903
 20
109.882282191
 30
0.0
 11
435.0330727903
 21
172.5493018563
 31
0.0
  0
LINE
  5
C7
330
1F
100
AcDbEntity
  8
0
  6
Continuous
 62
     1
370
    25
100
AcDbLine
 10
435.0330727903
 20
47.2152625258
 30
0.0
 11
435.0330727903
 21
109.882282191
 31
0.0
  0
LINE
  5
C8
330
1F
100
AcDbEntity
  8
0
  6
Continuous
 62
     1
370
    25
100
AcDbLine
 10
434.2329623906
 20
109.882282191
 30
0.0
 11
434.2329623906
 21
172.382282191
 31
0.0
  0
LINE
  5
C9
330
1F
100
AcDbEntity
  8
0
  6
Continuous
 62
     1
370
    25
100
AcDbLine
 10
434.2329623906
 20
47.382282191
 30
0.0
 11
434.2329623906
 21
109.882282191
 31
0.0
  0
LINE
  5
CA
330
1F
100
AcDbEntity
  8
0
  6
Continuous
 62
     7
370
    25
100
AcDbLine
 10
45.720490681
 20
-192.6216875458
 30
0.0
 11
45.720490681
 21
-297.2041928465
 31
0.0
  0
LINE
  5
CB
330
1F
100
AcDbEntity
  8
0
  6
Continuous
 62
     7
370
    25
100
AcDbLine
 10
225.7204978336
 20
-297.2041928465
 30
0.0
 11
225.7204978336
 21
-192.6216875458
 31
0.0
  0
ARC
  5
CC
330
1F
100
AcDbEntity
  8
0
  6
Continuous
 62
     7
370
    25
100
AcDbCircle
 10
47.7204942573
 20
-192.6216868103
 30
0.0
 40
1.999999999999993
100
AcDbArc
 50
156.4183488551
 51
180.0
  0
ARC
  5
CD
330
1F
100
AcDbEntity
  8
0
  6
Continuous
 62
     7
370
    25
100
AcDbCircle
 10
223.7204942573
 20
-192.6216868103
 30
0.0
 40
1.999999999999986
100
AcDbArc
 50
0.0
 51
23.5816511449
  0
LINE
  5
CE
330
1F
100
AcDbEntity
  8
0
  6
Continuous
 62
     7
370
    25
100
AcDbLine
 10
225.5534781684
 20
-191.8215752835
 30
0.0
 11
198.3875139226
 21
-129.5868234033
 31
0.0
  0
LINE
  5
CF
330
1F
100
AcDbEntity
  8
0
  6
Continuous
 62
     7
370
    25
100
AcDbLine
 10
73.0534745921
 20
-129.5868234033
 30
0.0
 11
45.8875103463
 21
-191.8215752835
 31
0.0
  0
ARC
  5
D0
330
1F
100
AcDbEntity
  8
0
  6
Continuous
 62
     7
370
    25
100
AcDbCircle
 10
71.2204942573
 20
-128.7867117001
 30
0.0
 40
1.999999999999986
100
AcDbArc
 50
336.4183488552
 51
0.0
  0
ARC
  5
D1
330
1F
100
AcDbEntity
  8
0
  6
Continuous
 62
     7
370
    25
100
AcDbCircle
 10
200.2204942573
 20
-128.7867117001
 30
0.0
 40
2.000000000000028
100
AcDbArc
 50
180.0
 51
203.5816511449
  0
LINE
  5
D2
330
1F
100
AcDbEntity
  8
0
  6
Continuous
 62
     7
370
    25
100
AcDbLine
 10
73.2204942573
 20
-42.2041976149
 30
0.0
 11
73.2204942573
 21
-128.7867130036
 31
0.0
  0
LINE
  5
D3
330
1F
100
AcDbEntity
  8
0
  6
Continuous
 62
     7
370
    25
100
AcDbLine
 10
198.2204942573
 20
-128.7867130036
 30
0.0
 11
198.2204942573
 21
-42.2041976149
 31
0.0
  0
LINE
  5
D4
330
1F
100
AcDbEntity
  8
0
  6
Continuous
 62
     7
370
    25
100
AcDbLine
 10
45.720490681
 20
-297.2041928465
 30
0.0
 11
225.7204978336
 21
-297.2041928465
 31
0.0
  0
LINE
  5
D5
330
1F
100
AcDbEntity
  8
0
  6
Continuous
 62
     7
370
    25
100
AcDbLine
 10
73.2204942573
 20
-42.2041976149
 30
0.0
 11
198.2204942573
 21
-42.2041976149
 31
0.0
  0
LINE
  5
D6
330
1F
100
AcDbEntity
  8
0
  6
Continuous
 62
     1
370
    25
100
AcDbLine
 10
45.720490681
 20
-192.6216875458
 30
0.0
 11
225.7204978336
 21
-192.6216875458
 31
0.0
  0
LINE
  5
D7
330
1F
100
AcDbEntity
  8
0
  6
Continuous
 62
     1
370
    25
100
AcDbLine
 10
45.8875103463
 20
-191.8215752835
 30
0.0
 11
225.5534781684
 21
-191.8215752835
 31
0.0
  0
LINE
  5
D8
330
1F
100
AcDbEntity
  8
0
  6
Continuous
 62
     1
370
    25
100
AcDbLine
 10
73.0534745921
 20
-129.5868234033
 30
0.0
 11
198.3875139226
 21
-129.5868234033
 31
0.0
  0
LINE
  5
D9
330
1F
100
AcDbEntity
  8
0
  6
Continuous
 62
     1
370
    25
100
AcDbLine
 10
73.2204942573
 20
-128.7867130036
 30
0.0
 11
198.2204942573
 21
-128.7867130036
 31
0.0
  0
LINE
  5
DA
330
1F
100
AcDbEntity
  8
0
  6
Continuous
 62
     7
370
    25
100
AcDbLine
 10
499.3367423648
 20
-90.5122389576
 30
0.0
 11
425.3857436733
 21
-47.8212361165
 31
0.0
  0
LINE
  5
DB
330
1F
100
AcDbEntity
  8
0
  6
Continuous
 62
     7
370
    25
100
AcDbLine
 10
335.393055163
 20
-203.7100328285
 30
0.0
 11
409.3440538545
 21
-246.4010356696
 31
0.0
  0
SPLINE
  5
DC
330
1F
100
AcDbEntity
  8
0
  6
Continuous
 62
     7
370
    25
100
AcDbSpline
210
0.0
220
0.0
230
1.0
 70
     8
 71
     3
 72
    11
 73
     7
 74
     0
 42
0.000000001
 43
0.00000001
 40
0.0
 40
0.0
 40
0.0
 40
0.0
 40
0.086870104648936
 40
0.4267325552090647
 40
0.7655872351804385
 40
1.0
 40
1.0
 40
1.0
 40
1.0
 10
508.7171240935338
 20
-98.75612147422751
 30
0.0
 10
508.5753964761002
 20
-98.5652194268271
 30
0.0
 10
507.8791870197452
 20
-97.6274501123888
 30
0.0
 10
506.4876552971029
 20
-96.11856972091103
 30
0.0
 10
504.7617343396645
 20
-94.40807519158413
 30
0.0
 10
503.5803384590233
 20
-93.47414691286517
 30
0.0
 10
503.097258044735
 20
-93.09225760108413
 30
0.0
  0
SPLINE
  5
DD
330
1F
100
AcDbEntity
  8
0
  6
Continuous
 62
     7
370
    25
100
AcDbSpline
210
0.0
220
0.0
230
1.0
 70
     8
 71
     3
 72
    11
 73
     7
 74
     0
 42
0.000000001
 43
0.00000001
 40
0.0
 40
0.0
 40
0.0
 40
0.0
 40
0.3091571279517057
 40
0.6390784001519184
 40
0.9696792767449278
 40
1.0
 40
1.0
 40
1.0
 40
1.0
 10
413.4809395745386
 20
-248.3946196325551
 30
0.0
 10
414.2592529204441
 20
-248.6874072746178
 30
0.0
 10
415.8681540355944
 20
-249.292647267347
 30
0.0
 10
418.4315173348234
 20
-249.9420305268697
 30
0.0
 10
420.2897210067616
 20
-250.3315580999824
 30
0.0
 10
421.2976061604733
 20
-250.4336616265507
 30
0.0
 10
421.3822777535048
 20
-250.4422392588502
 30
0.0
  0
LINE
  5
DE
330
1F
100
AcDbEntity
  8
0
  6
Continuous
 62
     7
370
    25
100
AcDbLine
 10
426.0527149168
 20
-250.7883643829
 30
0.0
 11
478.7847628704
 21
-251.3940675042
 31
0.0
  0
LINE
  5
DF
330
1F
100
AcDbEntity
  8
0
  6
Continuous
 62
     7
370
    25
100
AcDbLine
 10
538.3865969832
 20
-148.1494764905
 30
0.0
 11
511.4917630836
 21
-102.7875558006
 31
0.0
  0
LINE
  5
E0
330
1F
100
AcDbEntity
  8
0
  6
Continuous
 62
     7
370
    25
100
AcDbLine
 10
591.9490853665
 20
-175.7296137214
 30
0.0
 11
535.3750808507
 21
-143.0701360909
 31
0.0
  0
LINE
  5
E1
330
1F
100
AcDbEntity
  8
0
  6
Continuous
 62
     7
370
    25
100
AcDbLine
 10
472.8801606156
 20
-251.3262422151
 30
0.0
 11
529.4541651314
 21
-283.9857198455
 31
0.0
  0
LWPOLYLINE
  5
E2
330
1F
100
AcDbEntity
  8
0
  6
Continuous
 62
     7
370
    25
100
AcDbPolyline
 90
      121
 70
   128
 43
0.0
 10
316.7497865825
 20
-162.5040009644
 10
316.8370042172
 20
-158.6075512875
 10
317.0984147767
 20
-154.6210844726
 10
317.5332964963
 20
-150.5555286839
 10
318.1404692643
 20
-146.4220219305
 10
318.9182577435
 20
-142.2319002754
 10
319.8645335179
 20
-137.9966472691
 10
320.9767045564
 20
-133.7278673321
 10
322.2517204808
 20
-129.4372667438
 10
323.6860936395
 20
-125.1365973706
 10
325.2758780337
 20
-120.8376551426
 10
327.016732538
 20
-116.5522207434
 10
328.9038734851
 20
-112.2920383132
 10
330.9321326178
 20
-108.0687850352
 10
333.0959518204
 20
-103.8940407167
 10
335.3893989239
 20
-99.7792421629
 10
337.8061887795
 20
-95.7356710117
 10
340.3396937954
 20
-91.7744111481
 10
342.9829755466
 20
-87.9063182893
 10
345.7287847752
 20
-84.1419956498
 10
348.5695930003
 20
-80.4917574417
 10
351.4976214943
 20
-76.9656182314
 10
354.5048386482
 20
-73.5732275394
 10
357.583002119
 20
-70.3239002627
 10
360.7236785859
 20
-67.2265322653
 10
363.9182556036
 20
-64.28961787
 10
367.1579797986
 20
-61.5212034739
 10
370.4339706982
 20
-58.9288734806
 10
373.737249048
 20
-56.5197461211
 10
377.0587595318
 20
-54.3004116677
 10
380.3893994181
 20
-52.2769584826
 10
383.7200393044
 20
-50.4549367082
 10
387.0415497883
 20
-48.8393367859
 10
390.3448281381
 20
-47.4345801435
 10
393.6208190377
 20
-46.2445315542
 10
396.8605432327
 20
-45.2724400137
 10
400.0551202504
 20
-44.5209742937
 10
403.1957967172
 20
-43.9921944273
 10
406.2739601881
 20
-43.687549809
 10
409.281177342
 20
-43.6078814799
 10
412.2092058359
 20
-43.7533909498
 10
415.050014061
 20
-44.1237017964
 10
417.7958232896
 20
-44.7177805812
 10
420.4391050408
 20
-45.5340052908
 10
422.9726100567
 20
-46.570142526
 10
425.3893999124
 20
-47.8233475046
 10
427.6828470159
 20
-49.290188396
 10
429.8466662184
 20
-50.9666402409
 10
431.8749253511
 20
-52.8481153705
 10
433.7620662983
 20
-54.9294512412
 10
435.5029208026
 20
-57.2049378126
 10
437.0927051968
 20
-59.6683540494
 10
438.5270783554
 20
-62.3129314245
 10
439.8020942799
 20
-65.1314299609
 10
440.9142653184
 20
-68.1161245495
 10
441.8605410928
 20
-71.2588308021
 10
442.6383295719
 20
-74.550936994
 10
443.2455023399
 20
-77.9834169913
 10
443.6803840596
 20
-81.546869034
 10
443.9417946191
 20
-85.2315176412
 10
444.0290122537
 20
-89.0272679806
 10
443.9417946191
 20
-92.9237176575
 10
443.6803840596
 20
-96.9101844724
 10
443.2455023399
 20
-100.9757402611
 10
442.6383295719
 20
-105.1092470145
 10
441.8605410928
 20
-109.2993686696
 10
440.9142653184
 20
-113.5346216759
 10
439.8020942799
 20
-117.8034016129
 10
438.5270783554
 20
-122.0940022012
 10
437.0927051968
 20
-126.3946715744
 10
435.5029208026
 20
-130.6936138024
 10
433.7620662983
 20
-134.9790482016
 10
431.8749253511
 20
-139.2392306318
 10
429.8466662184
 20
-143.4624839098
 10
427.6828470159
 20
-147.6372282283
 10
425.3893999124
 20
-151.7520267821
 10
422.9726100567
 20
-155.7955979334
 10
420.4391050408
 20
-159.7568577969
 10
417.7958232896
 20
-163.6249506557
 10
415.050014061
 20
-167.3892732952
 10
412.2092058359
 20
-171.0395115033
 10
409.281177342
 20
-174.5656507136
 10
406.2739601881
 20
-177.9580414056
 10
403.1957967172
 20
-181.2073686823
 10
400.0551202504
 20
-184.3047366797
 10
396.8605432327
 20
-187.241651075
 10
393.6208190377
 20
-190.0100654712
 10
390.3448281381
 20
-192.6023954644
 10
387.0415497883
 20
-195.0115228239
 10
383.7200393044
 20
-197.2308572773
 10
380.3893994181
 20
-199.2543104624
 10
377.0587595318
 20
-201.0763322368
 10
373.737249048
 20
-202.6919321591
 10
370.4339706982
 20
-204.0966888015
 10
367.1579797986
 20
-205.2867373908
 10
363.9182556036
 20
-206.2588289313
 10
360.7236785859
 20
-207.0102946513
 10
357.583002119
 20
-207.5390745177
 10
354.5048386482
 20
-207.843719136
 10
351.4976214943
 20
-207.9233874651
 10
348.5695930003
 20
-207.7778779952
 10
345.7287847752
 20
-207.4075671486
 10
342.9829755466
 20
-206.8134883638
 10
340.3396937954
 20
-205.9972636542
 10
337.8061887795
 20
-204.961126419
 10
335.3893989239
 20
-203.7079214404
 10
333.0959518204
 20
-202.241080549
 10
330.9321326178
 20
-200.5646287041
 10
328.9038734851
 20
-198.6831535745
 10
327.016732538
 20
-196.6018177038
 10
325.2758780337
 20
-194.3263311325
 10
323.6860936395
 20
-191.8629148957
 10
322.2517204808
 20
-189.2183375205
 10
320.9767045564
 20
-186.3998389841
 10
319.8645335179
 20
-183.4151443956
 10
318.9182577435
 20
-180.2724381429
 10
318.1404692643
 20
-176.980331951
 10
317.5332964963
 20
-173.5478519538
 10
317.0984147767
 20
-169.984399911
 10
316.8370042172
 20
-166.2997513038
 10
316.7497865825
 20
-162.5040009644
  0
LWPOLYLINE
  5
E3
330
1F
100
AcDbEntity
  8
0
  6
Continuous
 62
     7
370
    25
100
AcDbPolyline
 90
      113
 70
   128
 43
0.0
 10
324.3158307765
 20
-158.1362166221
 10
324.4040441305
 20
-154.4546362088
 10
324.6684102377
 20
-150.6827878886
 10
325.1080966981
 20
-146.8325408882
 10
325.7217126656
 20
-142.9160122929
 10
326.5073351902
 20
-138.9455221814
 10
327.4624934129
 20
-134.9335601646
 10
328.5841791025
 20
-130.8927542068
 10
329.8688624603
 20
-126.8358143536
 10
331.3124973889
 20
-122.7755129601
 10
332.9105531021
 20
-118.7246162522
 10
334.6579930515
 20
-114.6958721571
 10
336.5493197076
 20
-110.7019570755
 10
338.5785824621
 20
-106.7554409005
 10
340.7393987016
 20
-102.8687353086
 10
343.0249696128
 20
-99.0540724678
 10
345.4281012554
 20
-95.3234563704
 10
347.9412361726
 20
-91.6886202497
 10
350.5564639278
 20
-88.161002246
 10
353.2655553487
 20
-84.7517013038
 10
356.0599888696
 20
-81.4714528384
 10
358.9309742382
 20
-78.330563339
 10
361.8694735898
 20
-75.338922538
 10
364.8662449108
 20
-72.5059418174
 10
367.9118565266
 20
-69.8405397614
 10
370.9967279318
 20
-67.3511003349
 10
374.1111515218
 20
-65.0454481704
 10
377.2453294715
 20
-62.9308455295
 10
380.3893994181
 20
-61.0139470582
 10
383.5334693648
 20
-59.3007796372
 10
386.6676473144
 20
-57.7967374425
 10
389.7820709044
 20
-56.5065526695
 10
392.8669423096
 20
-55.4342753848
 10
395.9125539255
 20
-54.5832891176
 10
398.9093252464
 20
-53.9562713192
 10
401.847824598
 20
-53.5551929849
 10
404.7188099667
 20
-53.3813133345
 10
407.5132434875
 20
-53.4351775322
 10
410.2223349085
 20
-53.716628098
 10
412.8375626637
 20
-54.2247684069
 10
415.3506975808
 20
-54.9580007146
 10
417.7538292234
 20
-55.9140200765
 10
420.0394001346
 20
-57.089818913
 10
422.2002163742
 20
-58.4816991785
 10
424.2294791287
 20
-60.085278448
 10
426.1208057847
 20
-61.8955142535
 10
427.8682457341
 20
-63.9067071277
 10
429.4663014473
 20
-66.1125279827
 10
430.909936376
 20
-68.5060439662
 10
432.1946197338
 20
-71.0797199866
 10
433.3163054233
 20
-73.8254552136
 10
434.2714636461
 20
-76.7346150203
 10
435.0570861707
 20
-79.7980446721
 10
435.6707021381
 20
-83.0061073515
 10
436.1103885985
 20
-86.3487031704
 10
436.3747547058
 20
-89.8153208801
 10
436.4629680597
 20
-93.3950523229
 10
436.3747547058
 20
-97.0766327362
 10
436.1103885985
 20
-100.8484810564
 10
435.6707021381
 20
-104.6987280568
 10
435.0570861707
 20
-108.6152566521
 10
434.2714636461
 20
-112.5857467636
 10
433.3163054233
 20
-116.5977087804
 10
432.1946197338
 20
-120.6385147382
 10
430.909936376
 20
-124.6954545914
 10
429.4663014473
 20
-128.7557559849
 10
427.8682457341
 20
-132.8066526928
 10
426.1208057847
 20
-136.8353967879
 10
424.2294791287
 20
-140.8293118695
 10
422.2002163742
 20
-144.7758280445
 10
420.0394001346
 20
-148.6625336364
 10
417.7538292234
 20
-152.4771964772
 10
415.3506975808
 20
-156.2078125746
 10
412.8375626637
 20
-159.8426486954
 10
410.2223349085
 20
-163.370266699
 10
407.5132434875
 20
-166.7795676412
 10
404.7188099667
 20
-170.0598161066
 10
401.847824598
 20
-173.200705606
 10
398.9093252464
 20
-176.192346407
 10
395.9125539255
 20
-179.0253271276
 10
392.8669423096
 20
-181.6907291836
 10
389.7820709044
 20
-184.1801686101
 10
386.6676473144
 20
-186.4858207746
 10
383.5334693648
 20
-188.6004234155
 10
380.3893994181
 20
-190.5173218868
 10
377.2453294715
 20
-192.2304893078
 10
374.1111515218
 20
-193.7345315025
 10
370.9967279318
 20
-195.0247162755
 10
367.9118565266
 20
-196.0969935602
 10
364.8662449108
 20
-196.9479798274
 10
361.8694735898
 20
-197.5749976258
 10
358.9309742382
 20
-197.9760759601
 10
356.0599888696
 20
-198.1499556105
 10
353.2655553487
 20
-198.0960914128
 10
350.5564639278
 20
-197.814640847
 10
347.9412361726
 20
-197.3065005381
 10
345.4281012554
 20
-196.5732682304
 10
343.0249696128
 20
-195.6172488685
 10
340.7393987016
 20
-194.441450032
 10
338.5785824621
 20
-193.0495697665
 10
336.5493197076
 20
-191.445990497
 10
334.6579930515
 20
-189.6357546916
 10
332.9105531021
 20
-187.6245618173
 10
331.3124973889
 20
-185.4187409623
 10
329.8688624603
 20
-183.0252249789
 10
328.5841791025
 20
-180.4515489585
 10
327.4624934129
 20
-177.7058137315
 10
326.5073351902
 20
-174.7966539248
 10
325.7217126656
 20
-171.7332242729
 10
325.1080966981
 20
-168.5251615935
 10
324.6684102377
 20
-165.1825657746
 10
324.4040441305
 20
-161.7159480649
 10
324.3158307765
 20
-158.1362166221
  0
ARC
  5
E4
330
1F
100
AcDbEntity
  8
0
  6
Continuous
 62
     7
370
    25
100
AcDbCircle
 10
484.2453272173
 20
-116.6442540048
 30
0.0
 40
30.17669666452592
100
AcDbArc
 50
51.6923648174
 51
59.9932760785
  0
LWPOLYLINE
  5
E5
330
1F
100
AcDbEntity
  8
0
  6
Continuous
 62
     7
370
    25
100
AcDbPolyline
 90
        3
 70
   128
 43
0.0
 10
413.3039083228
 20
-248.3160337818
 10
411.7571874711
 20
-247.6521292601
 10
409.3440538545
 20
-246.4010356696
  0
ARC
  5
E6
330
1F
100
AcDbEntity
  8
0
  6
Continuous
 62
     7
370
    25
100
AcDbCircle
 10
476.5793402634
 20
-123.6441390228
 30
0.0
 40
40.65915824490361
100
AcDbArc
 50
20.0583973851
 51
37.5320676529
  0
ARC
  5
E7
330
1F
100
AcDbEntity
  8
0
  6
Continuous
 62
     7
370
    25
100
AcDbCircle
 10
426.6569460593
 20
-210.3923394508
 30
0.0
 40
40.3960522784522
100
AcDbArc
 50
262.7143300776
 51
280.1014190026
  0
ARC
  5
E8
330
1F
100
AcDbEntity
  8
0
  6
Continuous
 62
     7
370
    25
100
AcDbCircle
 10
512.8521943712
 20
-163.2030054572
 30
0.0
 40
29.64143132682387
100
AcDbArc
 50
22.154476129
 51
30.5210125113
  0
LWPOLYLINE
  5
E9
330
1F
100
AcDbEntity
  8
0
  6
Continuous
 62
     7
370
    25
100
AcDbPolyline
 90
        3
 70
   128
 43
0.0
 10
482.5062071047
 20
-251.1926818636
 10
480.0455292088
 20
-251.3797179994
 10
478.7847628704
 20
-251.3940675042
  0
LWPOLYLINE
  5
EA
330
1F
100
AcDbEntity
  8
0
  6
Continuous
 62
     7
370
    25
100
AcDbPolyline
 90
       52
 70
   128
 43
0.0
 10
591.9490853665
 20
-175.7296137214
 10
592.9177911669
 20
-176.3246284262
 10
594.7538211576
 20
-177.6695835114
 10
596.4554632878
 20
-179.2205004024
 10
598.0160004033
 20
-180.9712582638
 10
599.4292737959
 20
-182.9149499935
 10
600.6897095449
 20
-185.0439019981
 10
601.7923290539
 20
-187.3497137372
 10
602.7327832949
 20
-189.8232835828
 10
603.5073580768
 20
-192.4548529268
 10
604.1129977532
 20
-195.2340343196
 10
604.5473157587
 20
-198.1498570997
 10
604.8085919752
 20
-201.1908179638
 10
604.8957990731
 20
-204.344913289
 10
604.8085919752
 20
-207.5996957862
 10
604.5473157587
 20
-210.9423197487
 10
604.1129977532
 20
-214.3595954243
 10
603.5073580768
 20
-217.8380335034
 10
602.7327832949
 20
-221.3639078548
 10
601.7923290539
 20
-224.9233030546
 10
600.6897095449
 20
-228.502172181
 10
599.4292737959
 20
-232.0863923251
 10
598.0160004033
 20
-235.6618147816
 10
596.4554632878
 20
-239.214330445
 10
594.7538211576
 20
-242.7299215203
 10
592.9177911669
 20
-246.1947117109
 10
590.9546199392
 20
-249.5950240112
 10
588.872051958
 20
-252.9174445825
 10
586.678308493
 20
-256.1488592533
 10
584.3820480874
 20
-259.2765128314
 10
581.9923309964
 20
-262.2880630938
 10
579.5185888946
 20
-265.1716286928
 10
576.9705853628
 20
-267.9158241338
 10
574.3583763757
 20
-270.5098221291
 10
571.6922694718
 20
-272.9433832528
 10
568.982787534
 20
-275.206904226
 10
566.2406240078
 20
-277.2914559365
 10
563.476600426
 20
-279.1888049174
 10
560.7016252489
 20
-280.8914675263
 10
557.9266500719
 20
-282.3927230594
 10
555.1626264901
 20
-283.686647778
 10
552.4204629639
 20
-284.7681306839
 10
549.7109810261
 20
-285.6329109683
 10
547.0448741222
 20
-286.2775713541
 10
544.4326651351
 20
-286.6995656581
 10
541.8846616033
 20
-286.8972324757
 10
539.4109195014
 20
-286.8697887131
 10
537.0212024105
 20
-286.6173470746
 10
534.7249420049
 20
-286.1408993284
 10
532.5311985399
 20
-285.4423269492
 10
530.4486305587
 20
-284.5243881881
 10
529.4541651314
 20
-283.9857198455
  0
LWPOLYLINE
  5
EB
330
1F
100
AcDbEntity
  8
0
  6
Continuous
 62
     1
370
    25
100
AcDbPolyline
 90
       59
 70
   128
 43
0.0
 10
502.9513667286
 20
-92.964788061
 10
503.79766491
 20
-93.657643082
 10
505.8259240427
 20
-95.5391182116
 10
507.7130649898
 20
-97.6204540823
 10
509.4539194941
 20
-99.8959406536
 10
511.0437038883
 20
-102.3593568904
 10
512.478077047
 20
-105.0039342656
 10
513.7530929714
 20
-107.822432802
 10
514.8652640099
 20
-110.8071273905
 10
515.8115397843
 20
-113.9498336432
 10
516.5893282635
 20
-117.2419398351
 10
517.1965010315
 20
-120.6744198323
 10
517.6313827511
 20
-124.2378718751
 10
517.8927933107
 20
-127.9225204823
 10
517.9800109453
 20
-131.7182708217
 10
517.8927933107
 20
-135.6147204986
 10
517.6313827511
 20
-139.6011873135
 10
517.1965010315
 20
-143.6667431022
 10
516.5893282635
 20
-147.8002498556
 10
515.8115397843
 20
-151.9903715107
 10
514.8652640099
 20
-156.225624517
 10
513.7530929714
 20
-160.494404454
 10
512.478077047
 20
-164.7850050423
 10
511.0437038883
 20
-169.0856744155
 10
509.4539194941
 20
-173.3846166435
 10
507.7130649898
 20
-177.6700510427
 10
505.8259240427
 20
-181.9302334729
 10
503.79766491
 20
-186.1534867509
 10
501.6338457075
 20
-190.3282310694
 10
499.340398604
 20
-194.4430296232
 10
496.9236087483
 20
-198.4866007744
 10
494.3901037324
 20
-202.447860638
 10
491.7468219812
 20
-206.3159534968
 10
489.0010127526
 20
-210.0802761363
 10
486.1602045275
 20
-213.7305143444
 10
483.2321760336
 20
-217.2566535547
 10
480.2249588796
 20
-220.6490442467
 10
477.1467954088
 20
-223.8983715234
 10
474.006118942
 20
-226.9957395208
 10
470.8115419242
 20
-229.9326539161
 10
467.5718177292
 20
-232.7010683122
 10
464.2958268296
 20
-235.2933983055
 10
460.9925484798
 20
-237.702525665
 10
457.671037996
 20
-239.9218601184
 10
454.3403981097
 20
-241.9453133035
 10
451.0097582234
 20
-243.7673350779
 10
447.6882477396
 20
-245.3829350002
 10
444.3849693897
 20
-246.7876916426
 10
441.1089784901
 20
-247.9777402319
 10
437.8692542951
 20
-248.9498317724
 10
434.6746772774
 20
-249.7012974924
 10
431.5340008106
 20
-250.2300773588
 10
428.4558373397
 20
-250.5347219771
 10
425.4486201858
 20
-250.6143903062
 10
422.5205916919
 20
-250.4688808363
 10
419.6797834668
 20
-250.0985699897
 10
416.9339742382
 20
-249.5044912049
 10
414.290692487
 20
-248.6882664953
 10
413.3039083228
 20
-248.3160337818
  0
ARC
  5
EC
330
1F
100
AcDbEntity
  8
0
  6
Continuous
 62
     1
370
    25
100
AcDbCircle
 10
529.6298043453
 20
-211.9202788201
 30
0.0
 40
133.2512409747972
100
AcDbArc
 50
137.0956547594
 51
162.9097263109
  0
LWPOLYLINE
  5
ED
330
1F
100
AcDbEntity
  8
0
  6
Continuous
 62
     1
370
    25
100
AcDbPolyline
 90
       45
 70
   128
 43
0.0
 10
514.7722577691
 20
-109.6989534167
 10
515.3187074651
 20
-111.2407200087
 10
516.2632288769
 20
-114.3775948673
 10
517.0395738265
 20
-117.6635913649
 10
517.6456191663
 20
-121.0897023796
 10
518.0796948275
 20
-124.6465398405
 10
518.3406206982
 20
-128.3243507002
 10
518.4276750138
 20
-132.1130579972
 10
518.3406206982
 20
-136.0022760675
 10
518.0796948275
 20
-139.9813455251
 10
517.6456191663
 20
-144.0393560766
 10
517.0395738265
 20
-148.1651921467
 10
516.2632288769
 20
-152.3475374437
 10
515.3187074651
 20
-156.574933512
 10
514.2086016221
 20
-160.8357896195
 10
512.9359511896
 20
-165.1184299042
 10
511.5042438191
 20
-169.4111146671
 10
509.9174044359
 20
-173.7020814367
 10
508.1797847022
 20
-177.9795616976
 10
506.2961419435
 20
-182.2318417256
 10
504.2716496854
 20
-186.4472534638
 10
502.1118449702
 20
-190.6142536049
 10
499.8226546984
 20
-194.7214144688
 10
497.4103508479
 20
-198.7574802723
 10
494.8815452056
 20
-202.7113914635
 10
492.2431709281
 20
-206.5723014502
 10
489.5024561998
 20
-210.3296435184
 10
486.666918965
 20
-213.9731034549
 10
483.7443247803
 20
-217.4927047152
 10
480.7426894497
 20
-220.8787947354
 10
477.6702368768
 20
-224.1220935982
 10
474.5353898459
 20
-227.2137115222
 10
471.3467397288
 20
-230.1451785175
 10
468.1130280452
 20
-232.9084550301
 10
464.8431161699
 20
-235.4959737648
 10
461.5459688694
 20
-237.9006309382
 10
458.230622033
 20
-240.1158474931
 10
454.9061629161
 20
-242.1355440011
 10
451.5817037993
 20
-243.9541862881
 10
448.2663569628
 20
-245.5667877132
 10
444.9692096623
 20
-246.9689357827
 10
441.6992977871
 20
-248.1567769384
 10
438.4655861034
 20
-249.1270644646
 10
435.2769359863
 20
-249.8771345309
 10
433.7420544477
 20
-250.1622059178
  0
LWPOLYLINE
  5
EE
330
1F
100
AcDbEntity
  8
0
  6
Continuous
 62
     1
370
    25
100
AcDbPolyline
 90
       39
 70
   128
 43
0.0
 10
540.3052137237
 20
-152.0250727531
 10
541.0562547591
 20
-154.046359293
 10
541.8329000049
 20
-156.6849600711
 10
542.4401597008
 20
-159.4715667756
 10
542.8756367447
 20
-162.3951828882
 10
543.1376136525
 20
-165.4442682234
 10
543.2250525581
 20
-168.6067929212
 10
543.1376136525
 20
-171.8702724305
 10
542.8756367447
 20
-175.2218298651
 10
542.4401597008
 20
-178.6482370703
 10
541.8329000049
 20
-182.1359708958
 10
541.0562547591
 20
-185.6712671881
 10
540.1132875123
 20
-189.2401755429
 10
539.0077229923
 20
-192.8286079742
 10
537.7439181295
 20
-196.4224050719
 10
536.3268673256
 20
-200.0073831506
 10
534.7621603063
 20
-203.5693935624
 10
533.0559715849
 20
-207.0943774487
 10
531.2150341204
 20
-210.568425054
 10
529.2466156101
 20
-213.9778259145
 10
527.1584842449
 20
-217.3091251285
 10
524.9588797338
 20
-220.549173545
 10
522.6564816934
 20
-223.6851855552
 10
520.2603780378
 20
-226.7047847181
 10
517.7800267833
 20
-229.5960562279
 10
515.2252139013
 20
-232.3475834131
 10
512.6060230253
 20
-234.9485138935
 10
509.9327919869
 20
-237.3885785878
 10
507.2160700107
 20
-239.6581498849
 10
504.4665782013
 20
-241.748270538
 10
501.6951687135
 20
-243.6506924441
 10
498.912777996
 20
-245.3579036363
 10
496.1303872786
 20
-246.8631723869
 10
493.3589777908
 20
-248.1605517656
 10
490.6094859814
 20
-249.2449267847
 10
487.8927640052
 20
-250.1120159157
 10
485.2195329668
 20
-250.7583980814
 10
482.6003420908
 20
-251.1815210177
 10
482.5062071047
 20
-251.1926818636
  0
ARC
  5
EF
330
1F
100
AcDbEntity
  8
0
  6
Continuous
 62
     1
370
    25
100
AcDbCircle
 10
531.7235025815
 20
-213.1289627707
 30
0.0
 40
133.7830475564846
100
AcDbArc
 50
139.0772300872
 51
160.9281414048
  0
LWPOLYLINE
  5
F0
330
1F
100
AcDbEntity
  8
0
  6
Continuous
 62
     1
370
    25
100
AcDbPolyline
 90
       44
 70
   128
 43
0.0
 10
537.200020952
 20
-146.148151068
 10
538.2061900323
 20
-147.5716160408
 10
539.4666257814
 20
-149.7005680454
 10
540.5692452903
 20
-152.0063797845
 10
541.5096995313
 20
-154.4799496302
 10
542.2842743132
 20
-157.1115189741
 10
542.8899139896
 20
-159.8907003669
 10
543.3242319952
 20
-162.8065231471
 10
543.5855082116
 20
-165.8474840111
 10
543.6727153096
 20
-169.0015793363
 10
543.5855082116
 20
-172.2563618335
 10
543.3242319952
 20
-175.598985796
 10
542.8899139896
 20
-179.0162614716
 10
542.2842743132
 20
-182.4946995507
 10
541.5096995313
 20
-186.0205739021
 10
540.5692452903
 20
-189.5799691019
 10
539.4666257814
 20
-193.1588382283
 10
538.2061900323
 20
-196.7430583724
 10
536.7929166397
 20
-200.3184808289
 10
535.2323795242
 20
-203.8709964923
 10
533.5307373941
 20
-207.3865875676
 10
531.6947074033
 20
-210.8513777582
 10
529.7315361756
 20
-214.2516900585
 10
527.6489681945
 20
-217.5741106298
 10
525.4552247295
 20
-220.8055253006
 10
523.1589643238
 20
-223.9331788787
 10
520.7692472329
 20
-226.9447291411
 10
518.2955051311
 20
-229.8282947401
 10
515.7475015993
 20
-232.5724901811
 10
513.1352926121
 20
-235.1664881764
 10
510.4691857083
 20
-237.6000493001
 10
507.7597037704
 20
-239.8635702733
 10
505.0175402442
 20
-241.9481219838
 10
502.2535166624
 20
-243.8454709647
 10
499.4785414854
 20
-245.5481335736
 10
496.7035663084
 20
-247.0493891067
 10
493.9395427265
 20
-248.3433138253
 10
491.1973792004
 20
-249.4247967312
 10
488.4878972625
 20
-250.2895770156
 10
485.8217903586
 20
-250.9342374014
 10
483.2095813715
 20
-251.3562317054
 10
480.6615778397
 20
-251.553898523
 10
478.1878357379
 20
-251.5264547604
 10
476.4582726377
 20
-251.367342798
  0
ENDSEC
  0
SECTION
  2
OBJECTS
  0
DICTIONARY
  5
C
330
0
100
AcDbDictionary
281
     1
  3
ACAD_GROUP
350
D
  3
ACAD_LAYOUT
350
1A
  3
ACAD_MLINESTYLE
350
17
  3
ACAD_PLOTSETTINGS
350
19
  3
ACAD_PLOTSTYLENAME
350
E
  3
ACAD_SCALELIST
350
47
  0
DICTIONARY
  5
D
102
{ACAD_REACTORS
330
C
102
}
330
C
100
AcDbDictionary
281
     1
  0
DICTIONARY
  5
1A
102
{ACAD_REACTORS
330
C
102
}
330
C
100
AcDbDictionary
281
     1
  3
Layout1
350
1E
  3
Layout2
350
26
  3
Model
350
22
  0
DICTIONARY
  5
17
102
{ACAD_REACTORS
330
C
102
}
330
C
100
AcDbDictionary
281
     1
  3
Standard
350
18
  0
DICTIONARY
  5
19
102
{ACAD_REACTORS
330
C
102
}
330
C
100
AcDbDictionary
281
     1
  0
ACDBDICTIONARYWDFLT
  5
E
102
{ACAD_REACTORS
330
C
102
}
330
C
100
AcDbDictionary
281
     1
  3
Normal
350
F
100
AcDbDictionaryWithDefault
340
F
  0
DICTIONARY
  5
47
102
{ACAD_REACTORS
330
C
102
}
330
C
100
AcDbDictionary
281
     1
  3
A0
350
48
  3
A1
350
49
  3
A2
350
4A
  3
A3
350
4B
  3
A4
350
4C
  3
A5
350
4D
  3
A6
350
4E
  3
A7
350
4F
  3
A8
350
50
  3
A9
350
51
  3
B0
350
52
  3
B1
350
53
  3
B2
350
54
  3
B3
350
55
  3
B4
350
56
  3
B5
350
57
  3
B6
350
58
  3
B7
350
59
  3
B8
350
5A
  3
B9
350
5B
  3
C0
350
5C
  3
C1
350
5D
  3
C2
350
5E
  3
C3
350
5F
  3
C4
350
60
  3
C5
350
61
  3
C6
350
62
  3
C7
350
63
  3
C8
350
64
  3
C9
350
65
  3
D0
350
66
  3
D1
350
67
  3
D2
350
68
  0
LAYOUT
  5
1E
102
{ACAD_REACTORS
330
1A
102
}
330
1A
100
AcDbPlotSettings
  1

  2
none_device
  4

  6

 40
0.0
 41
0.0
 42
0.0
 43
0.0
 44
0.0
 45
0.0
 46
0.0
 47
0.0
 48
0.0
 49
0.0
140
0.0
141
0.0
142
1.0
143
1.0
 70
   688
 72
     1
 73
     0
 74
     5
  7

 75
    16
147
1.0
148
0.0
149
0.0
100
AcDbLayout
  1
Layout1
 70
     1
 71
     1
 10
0.0
 20
0.0
 11
420.0
 21
297.0
 12
0.0
 22
0.0
 32
0.0
 14
1.0000000000E+20
 24
1.0000000000E+20
 34
1.0000000000E+20
 15
-1.0000000000E+20
 25
-1.0000000000E+20
 35
-1.0000000000E+20
146
0.0
 13
0.0
 23
0.0
 33
0.0
 16
1.0
 26
0.0
 36
0.0
 17
0.0
 27
1.0
 37
0.0
 76
     0
330
1B
  0
LAYOUT
  5
26
102
{ACAD_REACTORS
330
1A
102
}
330
1A
100
AcDbPlotSettings
  1

  2
none_device
  4

  6

 40
0.0
 41
0.0
 42
0.0
 43
0.0
 44
0.0
 45
0.0
 46
0.0
 47
0.0
 48
0.0
 49
0.0
140
0.0
141
0.0
142
1.0
143
1.0
 70
   688
 72
     1
 73
     0
 74
     5
  7

 75
    16
147
1.0
148
0.0
149
0.0
100
AcDbLayout
  1
Layout2
 70
     1
 71
     2
 10
0.0
 20
0.0
 11
0.0
 21
0.0
 12
0.0
 22
0.0
 32
0.0
 14
0.0
 24
0.0
 34
0.0
 15
0.0
 25
0.0
 35
0.0
146
0.0
 13
0.0
 23
0.0
 33
0.0
 16
1.0
 26
0.0
 36
0.0
 17
0.0
 27
1.0
 37
0.0
 76
     0
330
23
  0
LAYOUT
  5
22
102
{ACAD_REACTORS
330
1A
102
}
330
1A
100
AcDbPlotSettings
  1

  2
none_device
  4
Letter_(8.50_x_11.00_Inches)
  6

 40
6.35
 41
6.35
 42
6.35000508
 43
6.35000508
 44
215.9
 45
279.4
 46
0.0
 47
0.0
 48
0.0
 49
0.0
140
0.0
141
0.0
142
1.0
143
1.0
 70
  1712
 72
     1
 73
     0
 74
     0
  7

 75
     0
147
1.0
148
0.0
149
0.0
100
AcDbLayout
  1
Model
 70
     1
 71
     0
 10
0.0
 20
0.0
 11
279.4
 21
215.9
 12
0.0
 22
0.0
 32
0.0
 14
0.0
 24
0.0
 34
0.0
 15
279.4
 25
215.9
 35
0.0
146
0.0
 13
0.0
 23
0.0
 33
0.0
 16
1.0
 26
0.0
 36
0.0
 17
0.0
 27
1.0
 37
0.0
 76
     0
330
1F
331
29
  0
MLINESTYLE
  5
18
102
{ACAD_REACTORS
330
17
102
}
330
17
100
AcDbMlineStyle
  2
Standard
 70
     0
  3

 62
   256
 51
90.0
 52
90.0
 71
     2
 49
0.5
 62
   256
  6
BYLAYER
 49
-0.5
 62
   256
  6
BYLAYER
  0
ACDBPLACEHOLDER
  5
F
102
{ACAD_REACTORS
330
E
102
}
330
E
  0
SCALE
  5
48
102
{ACAD_REACTORS
330
47
102
}
330
47
100
AcDbScale
 70
     0
300
1:1
140
1.0
141
1.0
290
     1
  0
SCALE
  5
49
102
{ACAD_REACTORS
330
47
102
}
330
47
100
AcDbScale
 70
     0
300
1:2
140
1.0
141
2.0
290
     0
  0
SCALE
  5
4A
102
{ACAD_REACTORS
330
47
102
}
330
47
100
AcDbScale
 70
     0
300
1:4
140
1.0
141
4.0
290
     0
  0
SCALE
  5
4B
102
{ACAD_REACTORS
330
47
102
}
330
47
100
AcDbScale
 70
     0
300
1:5
140
1.0
141
5.0
290
     0
  0
SCALE
  5
4C
102
{ACAD_REACTORS
330
47
102
}
330
47
100
AcDbScale
 70
     0
300
1:8
140
1.0
141
8.0
290
     0
  0
SCALE
  5
4D
102
{ACAD_REACTORS
330
47
102
}
330
47
100
AcDbScale
 70
     0
300
1:10
140
1.0
141
10.0
290
     0
  0
SCALE
  5
4E
102
{ACAD_REACTORS
330
47
102
}
330
47
100
AcDbScale
 70
     0
300
1:16
140
1.0
141
16.0
290
     0
  0
SCALE
  5
4F
102
{ACAD_REACTORS
330
47
102
}
330
47
100
AcDbScale
 70
     0
300
1:20
140
1.0
141
20.0
290
     0
  0
SCALE
  5
50
102
{ACAD_REACTORS
330
47
102
}
330
47
100
AcDbScale
 70
     0
300
1:30
140
1.0
141
30.0
290
     0
  0
SCALE
  5
51
102
{ACAD_REACTORS
330
47
102
}
330
47
100
AcDbScale
 70
     0
300
1:40
140
1.0
141
40.0
290
     0
  0
SCALE
  5
52
102
{ACAD_REACTORS
330
47
102
}
330
47
100
AcDbScale
 70
     0
300
1:50
140
1.0
141
50.0
290
     0
  0
SCALE
  5
53
102
{ACAD_REACTORS
330
47
102
}
330
47
100
AcDbScale
 70
     0
300
1:100
140
1.0
141
100.0
290
     0
  0
SCALE
  5
54
102
{ACAD_REACTORS
330
47
102
}
330
47
100
AcDbScale
 70
     0
300
2:1
140
2.0
141
1.0
290
     0
  0
SCALE
  5
55
102
{ACAD_REACTORS
330
47
102
}
330
47
100
AcDbScale
 70
     0
300
4:1
140
4.0
141
1.0
290
     0
  0
SCALE
  5
56
102
{ACAD_REACTORS
330
47
102
}
330
47
100
AcDbScale
 70
     0
300
8:1
140
8.0
141
1.0
290
     0
  0
SCALE
  5
57
102
{ACAD_REACTORS
330
47
102
}
330
47
100
AcDbScale
 70
     0
300
10:1
140
10.0
141
1.0
290
     0
  0
SCALE
  5
58
102
{ACAD_REACTORS
330
47
102
}
330
47
100
AcDbScale
 70
     0
300
100:1
140
100.0
141
1.0
290
     0
  0
SCALE
  5
59
102
{ACAD_REACTORS
330
47
102
}
330
47
100
AcDbScale
 70
     0
300
1/128" = 1'-0"
140
0.0078125
141
12.0
290
     0
  0
SCALE
  5
5A
102
{ACAD_REACTORS
330
47
102
}
330
47
100
AcDbScale
 70
     0
300
1/64" = 1'-0"
140
0.015625
141
12.0
290
     0
  0
SCALE
  5
5B
102
{ACAD_REACTORS
330
47
102
}
330
47
100
AcDbScale
 70
     0
300
1/32" = 1'-0"
140
0.03125
141
12.0
290
     0
  0
SCALE
  5
5C
102
{ACAD_REACTORS
330
47
102
}
330
47
100
AcDbScale
 70
     0
300
1/16" = 1'-0"
140
0.0625
141
12.0
290
     0
  0
SCALE
  5
5D
102
{ACAD_REACTORS
330
47
102
}
330
47
100
AcDbScale
 70
     0
300
3/32" = 1'-0"
140
0.09375
141
12.0
290
     0
  0
SCALE
  5
5E
102
{ACAD_REACTORS
330
47
102
}
330
47
100
AcDbScale
 70
     0
300
1/8" = 1'-0"
140
0.125
141
12.0
290
     0
  0
SCALE
  5
5F
102
{ACAD_REACTORS
330
47
102
}
330
47
100
AcDbScale
 70
     0
300
3/16" = 1'-0"
140
0.1875
141
12.0
290
     0
  0
SCALE
  5
60
102
{ACAD_REACTORS
330
47
102
}
330
47
100
AcDbScale
 70
     0
300
1/4" = 1'-0"
140
0.25
141
12.0
290
     0
  0
SCALE
  5
61
102
{ACAD_REACTORS
330
47
102
}
330
47
100
AcDbScale
 70
     0
300
3/8" = 1'-0"
140
0.375
141
12.0
290
     0
  0
SCALE
  5
62
102
{ACAD_REACTORS
330
47
102
}
330
47
100
AcDbScale
 70
     0
300
1/2" = 1'-0"
140
0.5
141
12.0
290
     0
  0
SCALE
  5
63
102
{ACAD_REACTORS
330
47
102
}
330
47
100
AcDbScale
 70
     0
300
3/4" = 1'-0"
140
0.75
141
12.0
290
     0
  0
SCALE
  5
64
102
{ACAD_REACTORS
330
47
102
}
330
47
100
AcDbScale
 70
     0
300
1" = 1'-0"
140
1.0
141
12.0
290
     0
  0
SCALE
  5
65
102
{ACAD_REACTORS
330
47
102
}
330
47
100
AcDbScale
 70
     0
300
1-1/2" = 1'-0"
140
1.5
141
12.0
290
     0
  0
SCALE
  5
66
102
{ACAD_REACTORS
330
47
102
}
330
47
100
AcDbScale
 70
     0
300
3" = 1'-0"
140
3.0
141
12.0
290
     0
  0
SCALE
  5
67
102
{ACAD_REACTORS
330
47
102
}
330
47
100
AcDbScale
 70
     0
300
6" = 1'-0"
140
6.0
141
12.0
290
     0
  0
SCALE
  5
68
102
{ACAD_REACTORS
330
47
102
}
330
47
100
AcDbScale
 70
     0
300
1'-0" = 1'-0"
140
12.0
141
12.0
290
     0
  0
ENDSEC
  0
EOF
